ЧайФ Я рисую на окне текст, аккорды - аккорды песни чайф я рисую на окне

Приветствуем вас на сайте. Вы сейчас находитесь на странице, где можете скачать и прослушать ЧайФ - Я рисую на окне текст, аккорды, текст песни и смотреть видео клип онлайн

Исполнитель: ЧайФ

Название: Я рисую на окне (текст, аккорды)

Длительность mp3: 37:15

Добавлено: 2016-03-05

Слушали: 634

Скачать

Другие песни исполнителя ЧайФ
Текст песни:

D H7 Em A D D9 D
E2-----------2------0---3-2-0-------0------0---2-------0h2----
B----3---0-------0------------0-2------2-----2-----3-------3--
G--2---2---2---2---0--0-----------2--2---2-------2---2-------2
D0---------------------------------------------0--------------
A--------2----------------------0-----------------------------
E----------------0--------------------------------------------

2 раза

G A D H7
E-------3-------3-------0-------0-2-------2-----------2---3-2-
B---3-------3-------2-------2-3-------3-------3---0-----------
G-----0---0---0---0---2---2---------2---2---2---2---2---2-----
D---------------------------------0-------0-------------------
A-----------2-------0-----------------------------2-----------
E---3---------------------------------------------------------

Em A D D9 D G A A9A
E-----0---3-2-0-------0-------2-0-2-------0-2-----------------
B-0-------------0-2-------2-3---------3---------3---3-2-0-2---
G---0---0-----------2---2-----------2---2-----2---2-----------
D---------------------------------0---------0-----------------
A-----------------0-----------------------------------0-0-0---
E-0-------------------------------------------------3---------

соло Шахрина

D D9 D G A D(outtro)
E-2-3-5-10--10-9--7-7--5-2
B-3-3-5-10--10-10-7-7--5-3
G-------------------------
D-------------------------
A-------------------------
E-------------------------

D H7 Em
Я рисую на окне
A D D9 D
Глаз твоих косые стрелы.
D H7 Em
Я играю на трубе
A D D9 D
Водосточной неумело.
G A
Я тебе построю Кижи
D H7
Взяв от спичек коробок.
Em A
Я летаю над Парижем
D
Задевая потолок.
D D9 D G A

Я рисую на окне,
Я смотрю в пустые стены,
Оставляя на песке
Совершенные поэмы.
Я раскрашиваю грезы,
Я летаю в облаках.
О боже, может,
Может просто я дурак.
Отчего от счастья слезы,
Слезы горя, горя море
Счастья тихий ручеек,
Убегающий в песок

Я рисую на окне,
Сам с собою громко споря.
Поиск истины в вине,
Истина чего-то стоит.
Спит кукушка на часах.
Может поздно,
Может рано.
Нет у времени стоп крана
Нету крыльев на руках
Где-то там засох в пустыне
Счастья тихий ручеек.
Я один в своей квартире
А над небом потолок.

D9 :0320xx
H7 :20212x
G :330023
A :022200
A9 :002200
Em :0002200
D :2320xx

Клип Чайф - Я рисую на окне (Аккорды на гитаре Am)

Добавить комментарий